SLADE    

 

        Artist                    Slade 
        Album                    Any Christmas Album
        Title                     Merry Xmas Everybody
        Year                     1973
        Bass Played By          Jim Lea
        Tabbed by              Andy Rolland
        Tuning                   Standard
        Tempo                   128 bpm
 
Intro
 
G|-3---3---2---2---|-----------------|-----------------|-----------------| 
 
D|-----------------|-5---5---3---3---|-----------------|-----------------| 
 
A|-----------------|-----------------|-5---5---5---5---|-5---5---5---5---| 
 
E|-----------------|-----------------|-----------------|-----------------| 
 

Verse 1
 
Play 2 times
 
G|------------------|-----------------|-----------------|------------------| 
 
D|o-----------------|-----------------|-----------------|-4---4---7-7-7---o| 
 
A|o-----5-----------|-2-------2-------|-5---5---7-7-7---|-----------------o| 
 
E|--3-------0---3---|-----2-------2---|-----------------|------------------| 
 
 
 
G|-----------------|-----------------|-----------------|-----------------| 
 
D|-----------------|-----------------|-----------------|-----------------| 
 
A|-3---3---2-------|-------------2---|-3---3---2-------|-------5---------| 
 
E|-------------5---|-3---3-5---------|-------------5---|-3---3-------3---| 
 
 
 
G|-----------------|-----------------|-----------------|-----------------| 
 
D|-----------------|-----------------|-----------------|---------2---4---| 
 
A|-------------2h3-|-3---3---3---3---|-5---5---5---5---|-5---5-----------| 
 
E|-5---5---5-------|-----------------|-----------------|-----------------| 
 

Chorus
 
G|-----------------|-----------------|-----------------|-----------------| 
 
D|-5---4---2-------|---------4-------|-3---2-----------|---------4---7---| 
 
A|-------------5---|-2---5-------5---|---------5---1/--|-5---7-----------| 
 
E|-----------------|-----------------|-----------------|-----------------| 
 
 
 
G|-----------------|-----------------|-----------------|-----------------| 
 
D|-5---4---2-------|---------4-------|-3-------2-------|-----------------| 
 
A|-------------5---|-2---5-------5---|-----------------|-5-------1-------| 
 
E|-----------------|-----------------|-----------------|-----------------| 
 
 
 
G |-----------------|-----------------| 
 
D |-----------------|-----------------| 
 
A |-5---5---5---5---|-5---5---5---5---| 
 
E |-----------------|-----------------|
 
 
Verse 2
 
Play 2 times
 
G|------------------|-----------------|-----------------|------------------| 
 
D|o-----------------|-----------------|-----------------|-4---4---7-7-7---o| 
 
A|o-----5-----------|-2-------2-------|-5---5---7-7-7---|-----------------o| 
 
E|--3-------0---3---|-----2-------2---|-----------------|------------------| 
 
 
G|-----------------|-----------------|-----------------|-----------------| 
 
D|-----------------|-----------------|-----------------|-----------------| 
 
A|-3---3---2-------|-------------2---|-3---3---2-------|-------5---------| 
 
E|-------------5---|-3---3-5---------|-------------5---|-3---3-------3---| 
 
 
 
G|-----------------|-----------------|-----------------|-----------------| 
 
D|-----------------|-----------------|-----------------|---------2---4---| 
 
A|-------------2h3-|-3---3---3---3---|-5---5---5---5---|-5---5-----------| 
 
E|-5---5---5-------|-----------------|-----------------|-----------------| 
 

Chorus
 
G|-----------------|-----------------|-----------------|-----------------| 
 
D|-5---4---2-------|---------4-------|-3---2-----------|---------4---7---| 
 
A|-------------5---|-2---5-------5---|---------5---1/--|-5---7-----------| 
 
E|-----------------|-----------------|-----------------|-----------------| 
 
 
 
G|-----------------|-----------------|-----------------|-----------------| 
 
D|-5---4---2-------|---------4-------|-3-------2-------|-----------------| 
 
A|-------------5---|-2---5-------5---|-----------------|-5-------1-------| 
 
E|-----------------|-----------------|-----------------|-----------------| 
 
 
 
G |-----------------|-----------------| 
 
D |-----------------|-----------------| 
 
A |-5---5---5---5---|-5---5---5---5---| 
 
E |-----------------|-----------------|
 
 
Interlude Bass Solo
 
G |------10-----14---|-(14)------------10---|--------10-----14----| 
 
D |-12---------------|------8-----12--------|-12-----------------| 
 
A |------------------|----------------------|--------------------| 
 
E |------------------|----------------------|--------------------| 
 
 
 
G |-(14)------------10---|----------------------|----------------------| 
 
D |------8-----12---------|-10---10---10---10-12-|-(12)---12---12---12-| 
 
A |----------------------|----------------------|---------------------| 
 
E |----------------------|----------------------|---------------------| 
 
 
Verse 3
 
Play 2 times
 
G|------------------|-----------------|-----------------|------------------| 
 
D|o-----------------|-----------------|-----------------|-4---4---7-7-7---o| 
 
A|o-----5-----------|-2-------2-------|-5---5---7-7-7---|-----------------o| 
 
E|--3-------0---3---|-----2-------2---|-----------------|------------------| 
 
 
 
G|-----------------|-----------------|-----------------|-----------------| 
 
D|-----------------|-----------------|-----------------|-----------------| 
 
A|-3---3---2-------|-------------2---|-3---3---2-------|-------5---------| 
 
E|-------------5---|-3---3-5---------|-------------5---|-3---3-------3---| 
 
 
 
G|-----------------|-----------------|-----------------|-----------------| 
 
D|-----------------|-----------------|-----------------|---------2---4---| 
 
A|-------------2h3-|-3---3---3---3---|-5---5---5---5---|-5---5-----------| 
 
E|-5---5---5-------|-----------------|-----------------|-----------------| 
 

Chorus till end
                                                
G|-----------------|-----------------|-----------------|-----------------| 
 
D|-5---4---2-------|---------4-------|-3---2-----------|---------4---7---| 
 
A|-------------5---|-2---5-------5---|---------5---1/--|-5---7-----------| 
 
E|-----------------|-----------------|-----------------|-----------------| 
 
 
 
G|-----------------|-----------------|-----------------|-----------------| 
 
D|-5---4---2-------|---------4-------|-3---3---2---2---|-----------------| 
 
A|-------------5---|-2---5-------5---|-----------------|-5---5---1---1---| 
 
E|-----------------|-----------------|-----------------|-----------------| 
 
 
 
G |-----------------|-7-7-7-7-7-7-7-7-| 
 
D |-----------------|-----------------| 
 
A |-5---5---5---5---|-----------------| 
 
E |-----------------|-----------------| 
 

Welcome